HomeCalendarFAQSearchMemberlistUsergroupsRegisterLog in

Share | 
 

 the vines tabs

View previous topic View next topic Go down 
AuthorMessage
braindead

avatar

Posts : 363
Join date : 2011-10-24
Location : .

PostSubject: the vines tabs   Sat Oct 29, 2011 6:08 pm




1- “GIMME LOVE”
Intro /1 verse

A C
Gimme love, gimme love, gimme love
A C
I really need it
A C
Gimme love, gimme love, gimme love
A C
Just set me free, yeah

G D A# C
Feelin' down in the settin' sun
G D A# C
Callin' out cause I need someone

A C
Ahh (Alright)
A C
Ahh (Alright)

G D
Love me in the mornin'
A# C
Love me in the night
G D
Drugs make it better darlin'
A# C
It could be so fine
C A
Gimme love, gimme love, gimme love
C A
I really need it
+++++++++++++++++ all the same
----------------------------------------------------------------------------------------------


2 – “LEAVE ME IN THE DARK”

C F G (INTRO/VERSE)

CHORUS: F C
….around
F G
..alone

Huuu C/F/G………

All the same at the end
--------------------------------------------------

3 -“CANDY FLIPPIN’ GIRL”
D G B
Out in sun is where she plays

D G B
just having fun lost in a daze

D G C F A
I'm in love with the candy flippin' girl OH YEAH
D G C F A
This a land of a candy flippin' world OH YEAH

G D
I wanna go just where she goes
G F G
I wanna know just what she knows………

(All the same)
---------------------------------------------------------------------



4 – “A.S 4”

VERSE : E A C

CHORUS:

E C (In the autumn shade….)
A C (in the autumn shade…)

G F A
I dream of the summer time

G F A
I dream of the world outside…………………
---------------------------------------------------------------------------------------------------------


5 – “WEIRD ANIMALS”:

FAST!

E F# G G# G
A C D x 2



B!!!!!! A
WEEEEEEEEIR AAANIMALS

4-----------------5b---------------------
5--------------3------------------------- {X4
6----0 0 3/5---------------------------


2--------------------------------------------------
3--------------------------------------------------
4----------- 0 --5b-------------------------------- X2
5-0 ---0 2/4 -------------------------------------

END: E F# G G# G E




--------------------------------------------------------------------------------------------------------


6 – “CRY” :
VERSE : B A E

F# B (waiting for tomorrow)
F# A

B A E (CRY ,,,,CRY……)


C# F# (I just want to be happy!!!)
C# G F#


ALL THE SAME.
-----------------------------------------------------------



7 - “FUTURE PRIMITIVE”!!!!!!!!!!!!!!!!!!!:

C#/B F# x3 (COME AND FIND ME, !!)

A G# ( I’M ALONE!!!


F# G# A
I don't know what is going on yeah
F# G# A
don't know where the future is gone yeah




8 - “RIVERVIEW AVENUE”:
F# A E (ALL THE SONG)
------------------------------------------------------------------------------------------------------

9 - “BLACK DRAGON”:

INTRO: G A# G#
VERSE: G A# G#( WITH PALM MUTE)

CHORUS : C# D#
-------------------------------------------------------------------------------------------------------

10 - “ALL THAT YOU DO”:

D A G D

C G D (UUUUUUUUUUU)
C G F A (UUUUUUUUUUU)

--------------------------------------------------------------------------------------------------------
12 “GOODBYE” :


D G F# B


G D
(But now is over)
G D
For you and I

A G D
INTO THE END GOOD BYE
----------------------------------------------------------------------------------------------------------
13 “S.T.W”:
F# A# E
( ALL THE SONG




bye.
ANY ERROR OR DOUBT
LET ME KNOW. smile.gif


Last edited by braindead on Sat Apr 21, 2012 8:06 am; edited 1 time in total
Back to top Go down
View user profile http://www.www.com
freak

avatar

Posts : 261
Join date : 2011-10-24
Age : 83
Location : France

PostSubject: Re: the vines tabs   Sun Oct 30, 2011 12:53 am

Thanks Very Happy

If you're ok with that, we could use this thread for all Vines tabs.

Ms Jackson tabs:

(found on the net)

Em D
C
I'm sorry Ms Jackson
C D
I am for real

Em
Never meant to make your daughter cry
D
I apologised a trillion times
C
I'm sorry Ms Jackson
C D
I am for real

SAME CHORD SEQUENCE
Me and your daughter
Got a special thing goin' on

You say it's puppy love
We say it's full grown

Hope that we feel this
Feel this way for ever

You can plan a pretty picnic
But you can't predict the weather

Em D
C
I'm sorry Ms Jackson
C D
I am for real

Em
Never meant to make your daughter cry
D
I apologised a trillion times
C
I'm sorry Ms Jackson
C D
I am for real

Me and your daughter
Got a special thing goin' on

You say it's puppy love
We say it's full grown

Hope that we feel this
Feel this way for ever

You can plan a pretty picnic
But you can't predict the weather

Hope that we feel this
Feel this way for ever

Can't predict the weather etc....

C
I'm sorry Ms Jackson


I love you



Back to top Go down
View user profile
freak

avatar

Posts : 261
Join date : 2011-10-24
Age : 83
Location : France

PostSubject: Re: the vines tabs   Sun Oct 30, 2011 12:58 am

Vision Valley


Craig's Riff:
e|-------------------------------------------------|
B|-------------------------------------------------|
G|-------------------------------------------------|
D|-------------------------------------------------|
A|-----------3-5-5-7-3-3-5-----------3-5-5-7-3-3-5-|
E|-0-0-2-3-3---------------0-0-2-3-3---------------|

Open Chords:

Em G D C
Are you here forever standing by the road
Em G D C
With the benefit of feeling on your own
Em G D C
Where the river ends the sun is coming down
Em G D C
Through the vision valley waiting to be found

Em G D C
Ahh.. Ooh..
Em G D C
Ahh.. OOh..
Back to top Go down
View user profile
braindead

avatar

Posts : 363
Join date : 2011-10-24
Location : .

PostSubject: Re: the vines tabs   Sun Oct 30, 2011 3:01 am

freak wrote:
Thanks Very Happy

If you're ok with that, we could use this thread for all Vines tabs.

Ms Jackson tabs:

(found on the net)

Em D
C
I'm sorry Ms Jackson
C D
I am for real

Em
Never meant to make your daughter cry
D
I apologised a trillion times
C
I'm sorry Ms Jackson
C D
I am for real

SAME CHORD SEQUENCE
Me and your daughter
Got a special thing goin' on

You say it's puppy love
We say it's full grown

Hope that we feel this
Feel this way for ever

You can plan a pretty picnic
But you can't predict the weather

Em D
C
I'm sorry Ms Jackson
C D
I am for real

Em
Never meant to make your daughter cry
D
I apologised a trillion times
C
I'm sorry Ms Jackson
C D
I am for real

Me and your daughter
Got a special thing goin' on

You say it's puppy love
We say it's full grown

Hope that we feel this
Feel this way for ever

You can plan a pretty picnic
But you can't predict the weather

Hope that we feel this
Feel this way for ever

Can't predict the weather etc....

C
I'm sorry Ms Jackson


I love you



sure no problem man! *
ms jackson sound really good if you play this chord after C : (i m for reeal)

*
1- 5
2- 3
3- 0
4- 4
5- 5
6- 0

Smile
Back to top Go down
View user profile http://www.www.com
freak

avatar

Posts : 261
Join date : 2011-10-24
Age : 83
Location : France

PostSubject: Re: the vines tabs   Sun Oct 30, 2011 3:55 am

braindead wrote:

sure no problem man! *
ms jackson sound really good if you play this chord after C : (i m for reeal)

*
1- 5
2- 3
3- 0
4- 4
5- 5
6- 0

Smile

Thanks! bounce
Back to top Go down
View user profile
stormboy

avatar

Posts : 39
Join date : 2011-10-24
Location : San FranBrisco

PostSubject: Re: the vines tabs   Mon Oct 31, 2011 10:38 am

WOAH THANKS SO MUCH GUYS!!!!!!!!!!!!!!!!!!!!!!!!!!!!!!!!!!!!! Very Happy muchly appreciated.

stupid question, can anyone figure out the little guitar soloy bit in future primitive, played near the start and also right at the end of the song? i know it sounds easy, but im terrible at figuring out these things.
Back to top Go down
View user profile http://www.burningjeffbridges.tumblr.com
braindead

avatar

Posts : 363
Join date : 2011-10-24
Location : .

PostSubject: Re: the vines tabs   Mon Oct 31, 2011 6:28 pm

stormboy wrote:
WOAH THANKS SO MUCH GUYS!!!!!!!!!!!!!!!!!!!!!!!!!!!!!!!!!!!!! Very Happy muchly appreciated.

stupid question, can anyone figure out the little guitar soloy bit in future primitive, played near the start and also right at the end of the song? i know it sounds easy, but im terrible at figuring out these things.


i think.... : ( only studio version)


2--------5----5-----5 ----5 --5----------
3- -------- 6----6------6 ------------6--6--- x2 (with a little bit of bending.)



in concert, craig uses a tremolo effect :
http://www.youtube.com/watch?v=WikGrSuMpys
Back to top Go down
View user profile http://www.www.com
stormboy

avatar

Posts : 39
Join date : 2011-10-24
Location : San FranBrisco

PostSubject: Re: the vines tabs   Thu Dec 08, 2011 7:40 am

I really hate requesting things so please forgive me, but can anyone find online/tab Atmos?
Back to top Go down
View user profile http://www.burningjeffbridges.tumblr.com
braindead

avatar

Posts : 363
Join date : 2011-10-24
Location : .

PostSubject: Re: the vines tabs   Sat Apr 21, 2012 8:09 am

*VISION VALLEY*


ANYSOUND:
intro:DO/RE/DO/LA
est:D/A/C
"kill me now”...F/D
fin: C/D/C/A

NOTHINS COMIN`:
intro:G#... B/F#/D/A(with palm mute(p.m)
est: B/F#/D/A
end: (nothins comin x3): E/B/F/C

CANDY DAZE:
intro & verseA/G/D
"c`mon"..: A/G/D
"it`ll be allright": G/D x3
"SHE SPIT IN MY FACE" : C/A#
end: A/G/D

VISION VALLEY:
intro: E/G/D/C(ryan’s acoustic)
craig intro clean(without distorsion)

5+ ----------3-5-573-35-------------------------------
6+ 0—023 3-----------------------------------------

chorus: (haaa uuh) same chords(in the studio version craig use a bit of delay effect)

DONT LISTEN..:
intro: *feedback and A ( pm)
la(G x3)
la(G)/F/G/A (pm)
est: C/Em/A

GROSS OUT
D/A/A#
"i feel so down”: G/C/Bb/A (pm)
“c`mon now let”: D.... A/A#
end : D x5

TAKE ME BACK:
intro: A/E/F#/E
verse: A/F#
"well the road is long” : E/D/A/E/D/ F#(pm)

goin gone
C/Am/C
"INTO THE WORLD: G/F/C
C/CMAJ7
OUT OF THE WORLD GOOOONE

FUCK YEH:
intro and verse(pm) :Bb/C/G
you`ll never rule: C#/G#/G
two of a kind: F/G x3 now she dont care: Bb/G#

FUTURETARDED:
E(in 7nd fret) G
cut from an image..: C/A

...“c`mon baby”...: slide this chords D/E( in 7nd fret)/E//D/F/F
D/E E/D/E/ G
D/E/E/D/E/ F

end : D/E/E/D/E



DOPE TRAIN:

A/Bb/A/Bb/C/Bb/A
verse: A/Bb/A/Bb/C/Bb/A/Bb
chorus:same
but not in this part:
G/ C/A
(“youre forever dreamin........”)


ATMOS:
G#/E/G#/E
F#/D/A( ..“i heaR the sound”..)
C/G/A x2 (“tellin’ ya i love you,I REALLY RULEY DO")
end : (same chords with fingerpicking)




SPACESHIP: (take it easy......take a trip)


Bm
e|----------2---------------0---------------0----------------0-------|
B|----3-------3-------3-------3-------3-------3--------3-------3-----|
G|------4---------4-----4---------4-----4---------4------4---------4-|
D|-------------------------------------------------------------------|
A|-2------2-----2---0-----0-----0------------------------------------|
E|----------------------------------3-----3-----3----2-----2-----2---|

e|---------0-------0----------------------0-----0-------------------0----|
B|---3-------3-------3-------3--------3-------3-----3-------3-----3------|
G|-----4-------4---------4-----4--------4---------------4-----4---------4|
D|-----------------------------------------------------------------------|
A|-----------------------------------------------------------------------|
E|-0-----0-------0-----0---0-----0--2-------2-----2---2---2-----2-----2--|x3

chorus: Bm/Asus4/Cadd2/G
2nd verse:cadd2/G

Back to top Go down
View user profile http://www.www.com
matypeluka



Posts : 10
Join date : 2012-07-30
Age : 22
Location : Argentina. Santa Fe

PostSubject: Re: the vines tabs   Mon Aug 06, 2012 9:06 am

future primitive... there is not much solos in this work
here are some of them

candy flipping girl...

G---------7--5--4--5--4--2---------4--2--4--5--4--2- x2

Twisted Evil


Cry

G----9´--9´--9´---7------------------7--9-9--7-----------------
D------------------------9-----7--9h----------------9--7---------- x2

Laughing


Riverview Avenue

E---2-------------------
A-------2--4------------
D---------------2-------
Smile


black dragon (this is how I play)

D--5-5--8-10--11------5-5--8-5-5----- x2


in the medium has a bass part, just after of the solo

E-------------------------------6-6--4-4-5-------------------------------6-6-4-4-5
A--------------------------------------------------------------------------------------
D-5-5-5-5-5-5--3-0-3-5-------------------5-5-5-5-5----3-0-3-5---------------

cheers


those are all
Twisted Evil Twisted Evil Twisted Evil

another day I'll put all of "Vision Valley" and I will go back albums
(otro dia pondre todos los de V.V y ire retrocediendo los albums)
Back to top Go down
View user profile
matypeluka



Posts : 10
Join date : 2012-07-30
Age : 22
Location : Argentina. Santa Fe

PostSubject: Re: the vines tabs   Mon Aug 06, 2012 9:17 am

that distracted! I saute melody .. another day will begin by melody
Back to top Go down
View user profile
goodbye



Posts : 196
Join date : 2012-02-27
Age : 72

PostSubject: Re: the vines tabs   Tue Aug 07, 2012 5:18 pm

awesomeeeee!!! thankss!
Back to top Go down
View user profile
braindead

avatar

Posts : 363
Join date : 2011-10-24
Location : .

PostSubject: Re: the vines tabs   Thu Aug 09, 2012 5:41 am

gracias por el aporte maty.

Back to top Go down
View user profile http://www.www.com
Sponsored content




PostSubject: Re: the vines tabs   

Back to top Go down
 
the vines tabs
View previous topic View next topic Back to top 
Page 1 of 1
 Similar topics
-
» pumpkin vines
» Pumpkin vines/plants are HUGE! - HELP!
» Wilting pumpkin and squash vines
» Caged vines in SFG?
» WTB Fluke Tabs (FOUND)

Permissions in this forum:You cannot reply to topics in this forum
The Vines Official Forum :: The Vines :: General Discussion-
Jump to: